ISO-10303-21;
HEADER;
FILE_DESCRIPTION (( 'STEP AP203' ),
    '1' );
FILE_NAME ('MQWP-12.7-488.STEP',
    '2020-12-22T09:28:33',
    ( '' ),
    ( '' ),
    'SwSTEP 2.0',
    'SolidWorks 2020',
    '' );
FILE_SCHEMA (( 'CONFIG_CONTROL_DESIGN' ));
ENDSEC;

DATA;
#1 = DIRECTION ( 'NONE',  ( -1.000000000000000000, -0.000000000000000000, -0.000000000000000000 ) ) ;
#2 = SECURITY_CLASSIFICATION_LEVEL ( 'unclassified' ) ;
#3 = DIRECTION ( 'NONE',  ( 0.000000000000000000, 0.000000000000000000, 1.000000000000000000 ) ) ;
#4 = PERSON_AND_ORGANIZATION ( #121, #12 ) ;
#5 = DIRECTION ( 'NONE',  ( 1.000000000000000000, 0.000000000000000000, 0.000000000000000000 ) ) ;
#6 = CIRCLE ( 'NONE', #30, 3.000000000000000000 ) ;
#7 = APPROVAL_STATUS ( 'not_yet_approved' ) ;
#8 = DIRECTION ( 'NONE',  ( 0.000000000000000000, 0.000000000000000000, 1.000000000000000000 ) ) ;
#9 = APPROVAL_STATUS ( 'not_yet_approved' ) ;
#10 = ADVANCED_FACE ( 'NONE', ( #91 ), #14, .T. ) ;
#11 = APPROVAL ( #9, 'UNSPECIFIED' ) ;
#12 = ORGANIZATION ( 'UNSPECIFIED', 'UNSPECIFIED', '' ) ;
#13 = EDGE_LOOP ( 'NONE', ( #135, #165 ) ) ;
#14 = CYLINDRICAL_SURFACE ( 'NONE', #145, 3.000000000000000000 ) ;
#15 = PERSON_AND_ORGANIZATION ( #121, #12 ) ;
#16 = CARTESIAN_POINT ( 'NONE',  ( 0.9999999999999995559, 0.000000000000000000, 0.000000000000000000 ) ) ;
#17 = CC_DESIGN_APPROVAL ( #29, ( #57 ) ) ;
#18 = CC_DESIGN_DATE_AND_TIME_ASSIGNMENT ( #54, #83, ( #116 ) ) ;
#19 = ADVANCED_BREP_SHAPE_REPRESENTATION ( 'MQWP-12.7-488', ( #75, #87 ), #95 ) ;
#20 = ORIENTED_EDGE ( 'NONE', *, *, #130, .T. ) ;
#21 = PERSON_AND_ORGANIZATION ( #121, #12 ) ;
#22 = DIRECTION ( 'NONE',  ( 0.000000000000000000, 0.000000000000000000, 1.000000000000000000 ) ) ;
#23 = LOCAL_TIME ( 17, 28, 33.00000000000000000, #171 ) ;
#24 = SHAPE_DEFINITION_REPRESENTATION ( #63, #19 ) ;
#25 = CARTESIAN_POINT ( 'NONE',  ( 2.449293598294706907E-16, 0.000000000000000000, 3.000000000000000000 ) ) ;
#26 = PERSON_AND_ORGANIZATION ( #121, #12 ) ;
#27 = AXIS2_PLACEMENT_3D ( 'NONE', #82, #113, #43 ) ;
#28 = DATE_TIME_ROLE ( 'creation_date' ) ;
#29 = APPROVAL ( #7, 'UNSPECIFIED' ) ;
#30 = AXIS2_PLACEMENT_3D ( 'NONE', #124, #1, #109 ) ;
#31 = ORIENTED_EDGE ( 'NONE', *, *, #53, .F. ) ;
#32 = VERTEX_POINT ( 'NONE', #33 ) ;
#33 = CARTESIAN_POINT ( 'NONE',  ( 0.9999999999999995559, 0.000000000000000000, 3.000000000000000000 ) ) ;
#34 = EDGE_CURVE ( 'NONE', #162, #173, #114, .T. ) ;
#35 = COORDINATED_UNIVERSAL_TIME_OFFSET ( 8, 0, .AHEAD. ) ;
#36 = FACE_OUTER_BOUND ( 'NONE', #105, .T. ) ;
#37 = APPROVAL_ROLE ( '' ) ;
#38 = DIRECTION ( 'NONE',  ( -1.000000000000000000, -0.000000000000000000, -0.000000000000000000 ) ) ;
#39 = EDGE_CURVE ( 'NONE', #173, #162, #6, .T. ) ;
#40 = LOCAL_TIME ( 17, 28, 33.00000000000000000, #79 ) ;
#41 = DIRECTION ( 'NONE',  ( 0.000000000000000000, 0.000000000000000000, 1.000000000000000000 ) ) ;
#42 = PERSON_AND_ORGANIZATION_ROLE ( 'creator' ) ;
#43 = DIRECTION ( 'NONE',  ( -0.000000000000000000, 0.000000000000000000, 1.000000000000000000 ) ) ;
#44 = MECHANICAL_CONTEXT ( 'NONE', #102, 'mechanical' ) ;
#45 = CC_DESIGN_APPROVAL ( #11, ( #116 ) ) ;
#46 = ORIENTED_EDGE ( 'NONE', *, *, #160, .F. ) ;
#47 = LOCAL_TIME ( 17, 28, 33.00000000000000000, #157 ) ;
#48 = DIRECTION ( 'NONE',  ( -1.000000000000000000, -0.000000000000000000, -0.000000000000000000 ) ) ;
#49 = APPROVAL_PERSON_ORGANIZATION ( #4, #131, #62 ) ;
#50 = CALENDAR_DATE ( 2020, 22, 12 ) ;
#51 = CALENDAR_DATE ( 2020, 22, 12 ) ;
#52 = DIRECTION ( 'NONE',  ( 1.000000000000000000, 0.000000000000000000, 0.000000000000000000 ) ) ;
#53 = EDGE_CURVE ( 'NONE', #90, #32, #71, .T. ) ;
#54 = DATE_AND_TIME ( #69, #23 ) ;
#55 = APPROVAL_STATUS ( 'not_yet_approved' ) ;
#56 = LINE ( 'NONE', #129, #104 ) ;
#57 = PRODUCT_DEFINITION ( 'UNKNOWN', '', #73, #144 ) ;
#58 = AXIS2_PLACEMENT_3D ( 'NONE', #107, #48, #164 ) ;
#59 = PRODUCT_RELATED_PRODUCT_CATEGORY ( 'detail', '', ( #68 ) ) ;
#60 = ORIENTED_EDGE ( 'NONE', *, *, #134, .T. ) ;
#61 = DIRECTION ( 'NONE',  ( -1.000000000000000000, -0.000000000000000000, -0.000000000000000000 ) ) ;
#62 = APPROVAL_ROLE ( '' ) ;
#63 = PRODUCT_DEFINITION_SHAPE ( 'NONE', 'NONE',  #57 ) ;
#64 = PERSON_AND_ORGANIZATION_ROLE ( 'creator' ) ;
#65 = CARTESIAN_POINT ( 'NONE',  ( 2.449293598294706907E-16, 3.673940397442059868E-16, -3.000000000000000000 ) ) ;
#66 = CALENDAR_DATE ( 2020, 22, 12 ) ;
#67 = PLANE ( 'NONE',  #27 ) ;
#68 = PRODUCT ( 'MQWP-12.7-488', 'MQWP-12.7-488', '', ( #44 ) ) ;
#69 = CALENDAR_DATE ( 2020, 22, 12 ) ;
#70 = CARTESIAN_POINT ( 'NONE',  ( 1.224646799147353454E-16, 3.000000000000000000, 0.000000000000000000 ) ) ;
#71 = CIRCLE ( 'NONE', #74, 3.000000000000000000 ) ;
#72 =( NAMED_UNIT ( * ) PLANE_ANGLE_UNIT ( ) SI_UNIT ( $, .RADIAN. ) );
#73 = PRODUCT_DEFINITION_FORMATION_WITH_SPECIFIED_SOURCE ( 'ANY', '', #68, .NOT_KNOWN. ) ;
#74 = AXIS2_PLACEMENT_3D ( 'NONE', #148, #78, #8 ) ;
#75 = MANIFOLD_SOLID_BREP ( 'Ðý×', #167 ) ;
#76 = ORIENTED_EDGE ( 'NONE', *, *, #39, .F. ) ;
#77 = ORIENTED_EDGE ( 'NONE', *, *, #130, .F. ) ;
#78 = DIRECTION ( 'NONE',  ( -1.000000000000000000, -0.000000000000000000, -0.000000000000000000 ) ) ;
#79 = COORDINATED_UNIVERSAL_TIME_OFFSET ( 8, 0, .AHEAD. ) ;
#80 = CC_DESIGN_APPROVAL ( #131, ( #73 ) ) ;
#81 = PERSON_AND_ORGANIZATION ( #121, #12 ) ;
#82 = CARTESIAN_POINT ( 'NONE',  ( 0.9999999999999997780, 3.000000000000000000, 0.000000000000000000 ) ) ;
#83 = DATE_TIME_ROLE ( 'classification_date' ) ;
#84 = DIRECTION ( 'NONE',  ( 0.000000000000000000, 0.000000000000000000, -1.000000000000000000 ) ) ;
#85 = LINE ( 'NONE', #119, #122 ) ;
#86 = ADVANCED_FACE ( 'NONE', ( #36 ), #67, .F. ) ;
#87 = AXIS2_PLACEMENT_3D ( 'NONE', #127, #3, #52 ) ;
#88 = CC_DESIGN_DATE_AND_TIME_ASSIGNMENT ( #112, #28, ( #57 ) ) ;
#89 = UNCERTAINTY_MEASURE_WITH_UNIT (LENGTH_MEASURE( 1.000000000000000082E-05 ), #111, 'distance_accuracy_value', 'NONE');
#90 = VERTEX_POINT ( 'NONE', #170 ) ;
#91 = FACE_OUTER_BOUND ( 'NONE', #136, .T. ) ;
#92 = DATE_AND_TIME ( #66, #40 ) ;
#93 = DATE_AND_TIME ( #51, #47 ) ;
#94 = FACE_OUTER_BOUND ( 'NONE', #13, .T. ) ;
#95 =( GEOMETRIC_REPRESENTATION_CONTEXT ( 3 ) GLOBAL_UNCERTAINTY_ASSIGNED_CONTEXT ( ( #89 ) ) GLOBAL_UNIT_ASSIGNED_CONTEXT ( ( #111, #72, #155 ) ) REPRESENTATION_CONTEXT ( 'NONE', 'WORKASPACE' ) );
#96 = DIRECTION ( 'NONE',  ( -1.000000000000000000, -0.000000000000000000, -0.000000000000000000 ) ) ;
#97 = APPLICATION_CONTEXT ( 'configuration controlled 3d designs of mechanical parts and assemblies' ) ;
#98 = PERSON_AND_ORGANIZATION ( #121, #12 ) ;
#99 = CC_DESIGN_PERSON_AND_ORGANIZATION_ASSIGNMENT ( #15, #64, ( #73 ) ) ;
#100 = PERSON_AND_ORGANIZATION ( #121, #12 ) ;
#101 = CC_DESIGN_PERSON_AND_ORGANIZATION_ASSIGNMENT ( #100, #110, ( #68 ) ) ;
#102 = APPLICATION_CONTEXT ( 'configuration controlled 3d designs of mechanical parts and assemblies' ) ;
#103 = AXIS2_PLACEMENT_3D ( 'NONE', #70, #5, #84 ) ;
#104 = VECTOR ( 'NONE', #96, 1000.000000000000000 ) ;
#105 = EDGE_LOOP ( 'NONE', ( #77, #31 ) ) ;
#106 = ORIENTED_EDGE ( 'NONE', *, *, #53, .T. ) ;
#107 = CARTESIAN_POINT ( 'NONE',  ( 2.449293598294706907E-16, 0.000000000000000000, 0.000000000000000000 ) ) ;
#108 = CIRCLE ( 'NONE', #132, 3.000000000000000000 ) ;
#109 = DIRECTION ( 'NONE',  ( 0.000000000000000000, 0.000000000000000000, 1.000000000000000000 ) ) ;
#110 = PERSON_AND_ORGANIZATION_ROLE ( 'design_owner' ) ;
#111 =( LENGTH_UNIT ( ) NAMED_UNIT ( * ) SI_UNIT ( .MILLI., .METRE. ) );
#112 = DATE_AND_TIME ( #50, #146 ) ;
#113 = DIRECTION ( 'NONE',  ( -1.000000000000000000, 0.000000000000000000, -0.000000000000000000 ) ) ;
#114 = CIRCLE ( 'NONE', #58, 3.000000000000000000 ) ;
#115 = CYLINDRICAL_SURFACE ( 'NONE', #172, 3.000000000000000000 ) ;
#116 = SECURITY_CLASSIFICATION ( '', '', #2 ) ;
#117 = ADVANCED_FACE ( 'NONE', ( #138 ), #115, .T. ) ;
#118 = PERSON_AND_ORGANIZATION_ROLE ( 'classification_officer' ) ;
#119 = CARTESIAN_POINT ( 'NONE',  ( 0.000000000000000000, 3.673940397442059868E-16, -3.000000000000000000 ) ) ;
#120 = CC_DESIGN_PERSON_AND_ORGANIZATION_ASSIGNMENT ( #26, #118, ( #116 ) ) ;
#121 = PERSON ( 'UNSPECIFIED', 'UNSPECIFIED', 'UNSPECIFIED', ('UNSPECIFIED'), ('UNSPECIFIED'), ('UNSPECIFIED') ) ;
#122 = VECTOR ( 'NONE', #153, 1000.000000000000000 ) ;
#123 = EDGE_LOOP ( 'NONE', ( #20, #174, #76, #143 ) ) ;
#124 = CARTESIAN_POINT ( 'NONE',  ( 2.449293598294706907E-16, 0.000000000000000000, 0.000000000000000000 ) ) ;
#125 = PERSON_AND_ORGANIZATION_ROLE ( 'design_supplier' ) ;
#126 = APPROVAL_DATE_TIME ( #166, #131 ) ;
#127 = CARTESIAN_POINT ( 'NONE',  ( 0.000000000000000000, 0.000000000000000000, 0.000000000000000000 ) ) ;
#128 = PERSON_AND_ORGANIZATION ( #121, #12 ) ;
#129 = CARTESIAN_POINT ( 'NONE',  ( 0.000000000000000000, 0.000000000000000000, 3.000000000000000000 ) ) ;
#130 = EDGE_CURVE ( 'NONE', #32, #90, #108, .T. ) ;
#131 = APPROVAL ( #55, 'UNSPECIFIED' ) ;
#132 = AXIS2_PLACEMENT_3D ( 'NONE', #16, #38, #41 ) ;
#133 = APPROVAL_PERSON_ORGANIZATION ( #128, #29, #37 ) ;
#134 = EDGE_CURVE ( 'NONE', #32, #173, #56, .T. ) ;
#135 = ORIENTED_EDGE ( 'NONE', *, *, #39, .T. ) ;
#136 = EDGE_LOOP ( 'NONE', ( #46, #106, #60, #147 ) ) ;
#137 = APPROVAL_DATE_TIME ( #92, #29 ) ;
#138 = FACE_OUTER_BOUND ( 'NONE', #123, .T. ) ;
#139 = APPROVAL_DATE_TIME ( #93, #11 ) ;
#140 = DIRECTION ( 'NONE',  ( -1.000000000000000000, -0.000000000000000000, -0.000000000000000000 ) ) ;
#141 = ADVANCED_FACE ( 'NONE', ( #94 ), #152, .F. ) ;
#142 = CC_DESIGN_PERSON_AND_ORGANIZATION_ASSIGNMENT ( #21, #42, ( #57 ) ) ;
#143 = ORIENTED_EDGE ( 'NONE', *, *, #134, .F. ) ;
#144 = DESIGN_CONTEXT ( 'detailed design', #97, 'design' ) ;
#145 = AXIS2_PLACEMENT_3D ( 'NONE', #175, #61, #163 ) ;
#146 = LOCAL_TIME ( 17, 28, 33.00000000000000000, #35 ) ;
#147 = ORIENTED_EDGE ( 'NONE', *, *, #34, .F. ) ;
#148 = CARTESIAN_POINT ( 'NONE',  ( 0.9999999999999995559, 0.000000000000000000, 0.000000000000000000 ) ) ;
#149 = COORDINATED_UNIVERSAL_TIME_OFFSET ( 8, 0, .AHEAD. ) ;
#150 = APPLICATION_PROTOCOL_DEFINITION ( 'international standard', 'config_control_design', 1994, #102 ) ;
#151 = APPLICATION_PROTOCOL_DEFINITION ( 'international standard', 'config_control_design', 1994, #97 ) ;
#152 = PLANE ( 'NONE',  #103 ) ;
#153 = DIRECTION ( 'NONE',  ( -1.000000000000000000, -0.000000000000000000, -0.000000000000000000 ) ) ;
#154 = APPROVAL_ROLE ( '' ) ;
#155 =( NAMED_UNIT ( * ) SI_UNIT ( $, .STERADIAN. ) SOLID_ANGLE_UNIT ( ) );
#156 = CC_DESIGN_PERSON_AND_ORGANIZATION_ASSIGNMENT ( #81, #125, ( #73 ) ) ;
#157 = COORDINATED_UNIVERSAL_TIME_OFFSET ( 8, 0, .AHEAD. ) ;
#158 = CC_DESIGN_SECURITY_CLASSIFICATION ( #116, ( #73 ) ) ;
#159 = APPROVAL_PERSON_ORGANIZATION ( #98, #11, #154 ) ;
#160 = EDGE_CURVE ( 'NONE', #90, #162, #85, .T. ) ;
#161 = LOCAL_TIME ( 17, 28, 33.00000000000000000, #149 ) ;
#162 = VERTEX_POINT ( 'NONE', #65 ) ;
#163 = DIRECTION ( 'NONE',  ( 0.000000000000000000, 0.000000000000000000, 1.000000000000000000 ) ) ;
#164 = DIRECTION ( 'NONE',  ( 0.000000000000000000, 0.000000000000000000, 1.000000000000000000 ) ) ;
#165 = ORIENTED_EDGE ( 'NONE', *, *, #34, .T. ) ;
#166 = DATE_AND_TIME ( #169, #161 ) ;
#167 = CLOSED_SHELL ( 'NONE', ( #117, #10, #86, #141 ) ) ;
#168 = CARTESIAN_POINT ( 'NONE',  ( 0.000000000000000000, 0.000000000000000000, 0.000000000000000000 ) ) ;
#169 = CALENDAR_DATE ( 2020, 22, 12 ) ;
#170 = CARTESIAN_POINT ( 'NONE',  ( 0.9999999999999995559, 3.673940397442059868E-16, -3.000000000000000000 ) ) ;
#171 = COORDINATED_UNIVERSAL_TIME_OFFSET ( 8, 0, .AHEAD. ) ;
#172 = AXIS2_PLACEMENT_3D ( 'NONE', #168, #140, #22 ) ;
#173 = VERTEX_POINT ( 'NONE', #25 ) ;
#174 = ORIENTED_EDGE ( 'NONE', *, *, #160, .T. ) ;
#175 = CARTESIAN_POINT ( 'NONE',  ( 0.000000000000000000, 0.000000000000000000, 0.000000000000000000 ) ) ;
ENDSEC;
END-ISO-10303-21;
